ok theres to many

so something I saw on twitter yesterday really bugged me. there’s people saying that the Power Rangers movie is getting way more credit than is due because of the way they handle Trini’s sexuality

ok LISTEN. It was never going to be the case of Trini yelling, “IM A LESBIAN!” or “IM BISEXUAL!” there’s no way they’d be so upfront about it. I thought the scene where she came out was nice, subtle, emotional, and I thought it was in-character how she’s still sarcastic at such a time. After all Trini is what, 15/16/17 in the movie? She’s discovering herself and doesn’t have to be 100% sure. there’s time for that

cuz get this. it’s the first movie. they’ve said there’s going to be 5-7 of them? People are acting like this is the end and we’ll never see her come to terms with this and that she’ll never label herself (though sticking to no labels is fine too of course)

The Power Rangers movie DOES deserve a round of applause for including an LGBT character, just because they didn’t go about it as directly as you would’ve liked doesn’t make it any less amazing. This is a small stepping stone you guys we’re going to see her character grow more confident throughout the franchise and it’s going to be beautiful

4

red spoils blue in his own way

does this count as spoiling?? idk he indulges his bf sometimes

7

“7 or never, 7 or nothing.” #GOT73rdAnniversary #3YearsWithGOT7 #LetsFlyHighLetGreenShine

10

carwood lipton
requested by @seeungri

Storylines for Robert other than “will he cheat?”:

  • Telling Victoria and Diane about Jack
  • The lost years
  • Coming out as bi to Diane and Vic
  • Addressing Rebecca/Aaron/the villages’ biphobia
  • Robert finding out that Vic’s having a baby/supporting her through her likely fertility issues
  • Robert and Liv improving their relationship/bonding
  • Wedding planning
  • Renovating the Mill
  • Robert getting jealous/insecure for once
  • Robert making friends
  • Robert starting his own mental health journey
  • Literally a million other things?
9

every mitch outfit: ptxperience edition (part one)

anonymous asked:

What do you think are ichiruki's most iconic scenes

there’s too many…

jk i was gonna attempt to be funny and just upload all the volume covers for bleach but you know what? not today. this post will probably be very image heavy, sorry in advance. my favorite moments are the following.

what started it all. thanks to these two the bleach manga became as successful as it once was. i don’t think there is a more iconic introduction.

they understand each other even without needing words :’)

…do i need to explain this one… 

AN ICONIC END TO AN ICONIC ARC

*o*

stopped crying immediately after he saw her and the rain was stopped once again #herimpact. aaaand the MOST iconic moment imo is

i know it’s a pretty generic answer BUT even though i was a shipper before this moment happened i still think it’s what sealed the deal w ichiruki for many. this scene alone can destroy any argument antis try to use. an absolutely beautiful chapter. kubo did a great job for once expressing emotions through eyes on this one!

2
5

This or That - Walt Disney Studios or Studio Ghibli - for petcanadian

‘They Wanted Darkness...’ bass tabs
Drop D tuning      


Intro
|---------------------------------|
|---------------------------------|
|-------3-3------------3-3--------|
|---5-5-----3-3----5-5----3-3-----| |-----------------------------------------------------------------|
|-----------------------------------------------------------------|
|-------3-3-3-2-2-2-5-5-5-------3-3-3-2-2-2-----------------------|
|--5-5-5------------------5-5-5------------3-3-3------------------|x3 |-----------------------------------------------------------------|
|-----------------------------------------------------------------|
|-2-2-2-2-2-2-2-2-----------------2-2-2-2-2-2-2-2-----------------|
|-----------------3-3-3-3-3-3-3-3-----------------3-3-3-3-3-3-3-3-| |-----------------------------------------------------------------|
|---2---------------2-----------------2----------------2----------|
|-----3-5-2-3-2-3-----3-5-----2-2-------3-5-2-3----------3-5------|
|-5---------------5----------------5-----------------5-------3----| Intro repeated |---------------------------------|
|---------------------------------|
|-------3-3------------3-3--------|
|---5-5-----3-3----5-5----3-3-----| |-----------------------------------------------------------------|
|-----------------------------------------------------------------|
|-------3-3-3-2-2-2-5-5-5-------3-3-3-2-2-2-----------------------|
|--5-5-5------------------5-5-5------------3-3-3------------------|x2 |-----------------------------------------------------------------|
|-----------------------------------------------------------------|
|-2-2-2-2-2-2-2-2-----------------2-2-2-2-2-2-2-2-----------------|
|-----------------3-3-3-3-3-3-3-3-----------------3-3-3-3-3-3-3-3-| |-----------------------------------------------------------------|
|---2---------------2-----------------2----------------2----------|
|-----3-5-2-3-2-3-----3-5-----2-2-------3-5-2-3----------3-5------|
|-5---------------5----------------5-----------------5------------| |-----------------------------------------------------------------|
|-----------------------------------------------------------------|
|-----------------------------4-4-4-4-4-4-4-4-4-4-4-4-4-2-4-5-5-5-|
|-5-5-5-5-5-5-5-5-5-5-5-5-5-5-------------------------------------| |-----------------------------------------------------------------|
|-----------------------------------------------------------------|
|-5-5-5-5-5-5-5-5-5-2-2-2-2-2-2-2-2-2-2-2-2-2---------------------|
|-----------------------------------------------------------------| |-----------------------------------------------------------------|
|-----------------------------------------------------------------|
|-----------------------------4-4-4-4-4-4-4-4-4-4-4-4-4-2-4-5-5-5-|
|-5-5-5-5-5-5-5-5-5-5-5-5-5-5-------------------------------------| |-----------------------------------------------------------------|
|-----------------------------------------------------------------|
|-5-5-5-5-5-5-5-5-5-2-2-2-2-2-2-2-2-2-2-2-2-2---------------------|
|-----------------------------------------------------------------|  (im really lazy so i’m not gonna tab out each repeated note, i’m   pretty sure each note cluster is somewhere around 8-14 picks more or less, just listen to the song and play what you hear |-----------------------------------------------------------------| |-----------------------------------------------------------------| |-4(x10)-2-4------5(x10)--7-7--4(x1)-2-4----5(x10)----------------| |----------------------------------------------------5(x10)-7-----| |-----------------------------------------------------------------| |-----------------------------------------------------------------| |-----------------------------------------------------------------| |-4(x10)-5----2(x10)----0(x10)---4(x10)---5(x10)-7------4(x10)-5--| |-----------------------------------------------------------------| |-----------------------------------------------------------------| |-----------------------------------------------------------------| |-2(x10)----------------------------------------------------------| |-----------------------------------------------------------------| |-----------------------------------------------------------------| |-----------------------------------------------------------------| |-4(x14)-----5(x14)----4(x14)-----2(x14)----0(x10)-----4(x14)-----| |-----------------------------------------------------------------| |-----------------------------------------------------------------| |-----------------------------------------------------------------| |-5(x14)----4(x14)-----0(x14)-----5(x14)-----4(x14)----0(x14)-----| |-----------------------------------------------------------------| |-----------------------------------------------------------------| |-----------------------------------------------------------------| |-5(x14)-----4(x14)----0(x14)------4------------------------------|

what do i think about them?

they’re fussy, stubborn, noisy, needy, whiny, messy, distracting, rude,

and adorable.

i love every single one of them

listen…..we gotta talk about yamakage